Duman melankoli solo tabı?

Aranızda duman melankoli şarkısının solo tab ı olan var mı?


0|0
1|1

Erkekler Ne Diyor 1

Kızlar Ne Diyor 1

  • E-------1-----------0---------------------------------
    B---------0-----------1---------3------------1-------
    G----2-----------2-----------2----2-------2---2---- -> 2 defa
    D-------------------------------------------------------
    A--0-----------0-----------0------------0------------
    E-------------------------------------------------------

    E------------------------------------------------------
    B---------0-----------0------------0-------------0
    G-----0-----0-----0-----0-----0-----0------0------0
    D------------------------------------------------------ -> 2 defa
    A------------------------------------------------------
    E--0------------------------------------------------------

    Buda link : www.akormerkezi.com/...nkoli-tab_sarki-pdrjvn.html

    0|1
    0|0
    • Bu şarkının sonundaki gitar solo sunu diyorum

    • akormerkezinden kontrol et biraz bakalım. bulamazsanda kendin çıkarman gerekiyor bazen tab konusunda çok sağlam olmadığım için sana çok yardımcı olamicam benden bu kadar :)

Yükleniyor...